Alan Aldrigde, The Beatles Illustrated Lyrics John Lennon, Paul McCartney, Ringo Starr en George Harrison Alan Aldrigde, The Beatles Illustrated Lyrics (c) Alan Aldrigde, The Beatles Illustrated Lyrics

Index     Home     Vorige    


Because

Composer(s) : Lennon and McCartney
Year :

Alan W. Pollack 's "Notes On" Because


 
||-------0---------|-------0---------|-----------------|-----------------|
||-----1---1-------|-----1---1-------|-----2-4-2-------|-----1-4-1-------|
||---2-------2---2-|---2-------2---2-|---2-------2-----|---1-------1---1-|
||-----------------|-----------------|-1-----------2-4-|-1---------------|
||-4-----------4---|-4-----------4---|-----------------|-----------------|
||-----------------|-----------------|-----------------|-------------4---|




|-------0---------|-------0---------|-------3---------|-------2---------|
|-----2---2-------|-----1---1-------|-----2---2-------|-----2-----------|
|---2-------2---2-|---2-------2---2-|---0-------0---0-|---0-------------|
|-------------2---|-----------------|-1-----------2---|-----------------|
|-0---------------|-4-----------4---|-----------------|-0---------------|
|-----------------|-----------------|-----------------|-----------------|



|-------2---------|-------2-1-------||
|-----3---3-------|-----3-----------||
|---2-------2---2-|---4-----------o-||
|-0-----------4---|-0-------------o-||
|-----------------|-----------------||
|-----------------|-----------------|| 

Intro: C#m  C#m  D#m7-5  G#7  A  C#m  A7  A13  D  Ddim


Verse 1:
   C#m                C#m                D#m7-5  G#7
Be-cause the world is round, it turns me on_________;

   A         C#m      A9   A13  D  Ddim
Be-cause the world is round___. Ah_____.


Verse 2:
   C#m               C#m               D#m7-5  G#7
Be-cause the wind is high, it blows my mind_______;

   A         C#m     A9   A13  D  
Be-cause the wind is high____. Ah.


Bridge:
(*This is an exception, the Ddim is played for one beat and the last three beats have no chord)

Ddim (none)               F#
     Love is old, love is new;

(none)               G#7  G#7
Love is all, love is you.


Verse 3:
   C#m              C#m               D#m7-5  G#7
Be-cause the sky is blue, it makes me cry________;

   A         C#m    A9   A13  D  Ddim  C#m  C#m
Be-cause the sky is blue____. Ah_______________.


Outro:
D#m7-5  G#7  A  C#m  A9  A13  D  Ddim
Ah_________________. Oo_____. Ah_____.


Chords used:
   C#m  D#m7-5  G#7  A  A7  A13  D  Ddim  A9  F#  
E:--0-----2------2---0--0----2---2---1----0---2--
B:--2-----2------1---2--2----2---3---0----0---2--
G:--1-----2------1---2--0----0---2---1----0---3--
D:--2-----1------1---2--2----2---0---0----2---4--
A:--x-----x------x---0--0----0---x---x----4---x--
E:--x-----x------x---x--x----x---x---x----x---x--




Ook op Abbey Road:

ChordsNotes On
Come Together Come Together
Something Something
Maxwell's Silver Hammer Maxwell's Silver Hammer
Oh! Darling Oh! Darling
Octopus's Garden Octopus's Garden
I Want You (She's So Heavy) I Want You (She's So Heavy)
Here Comes the Sun Here Comes the Sun
Because Because
You Never Give Me Your Money You Never Give Me Your Money
Sun King Sun King
Mean Mr. Mustard Mean Mr. Mustard
Polythene Pam Polythene Pam
She Came in Through the Bathroom Window She Came in Through the Bathroom Window
Golden Slumbers Golden Slumbers
Carry That Weight Carry That Weight
The End The End
Her Majesty Her Majesty

Ook op Anthology 3:

ChordsNotes On
A Beginning 
Happiness Is A Warm Gun (Kinfauns Home Demo)
Helter Skelter (Edited Take 2)
Mean Mr. Mustard (Kinfauns Home Demo)
Polythene Pam (Kinfauns Home Demo)
Glass Onion (Kinfauns Home Demo)
Junk (Kinfauns Home Demo)
Piggies (Kinfauns Home Demo)
Honey Pie (Kinfauns Home Demo)
Don't Pass Me By (Takes 3 & 5)
Ob-La-Di, Ob-La-Da Ob-La-Di, Ob-La-Da
Good Night (Rehearsal & Take 34)
Cry Baby Cry (Take 1)
Blackbird (take 4)
Sexy Sadie (Take 6)
While My Guitar Gently Weeps (Demo)
Hey Jude Hey Jude
Not Guilty (Take 102)
Mother Nature's Son (Take 2)
Glass Onion Glass Onion
Rocky Raccoon (Take 8)
What's The New Mary Jane (Take 4)
Step Inside Love / Los Paranoias 
I'm So Tired (Takes 3, 6 & 9)
I Will (Take 1)
Why Don't We Do It In The Road (Take 4)
Julia (Take 2)
I've Got A Feeling (Savile Row)
She Came In Through The Bathroom Window (Rehearsal) (Savile Row)
Dig A Pony (Savile Row)
Two Of Us (Savile Row)
For You Blue (Savile Row)
Teddy Boy (Savile Row)
Medley: Rip It Up / Shake, Rattle And Roll / Blue Suede Shoes (perkins) (savile Row) 
The Long And Winding Road (Savile Row)
Oh! Darling (Savile Row)
All Things Must Pass (Demo)
Mailman, Bring Me No More Blues (Savile Row)
Get Back (Live at the Rooftop Concert)
Old Brown Shoe (Demo)
Octopus's Garden (Takes 2 & 8)
Maxwell's Silver Hammer (Take 5)
Something (Demo)
Come Together (Take 1)
Come And Get It (Demo)
Ain't She Sweet (Jam)
Because Because
Let It Be (Savile Row)
I Me Mine (Take 16)
The End (Remix)

Ook op Love:

ChordsNotes On
Because Because
Get Back Get Back
Glass Onion Glass Onion
Eleanor Rigby Eleanor Rigby
Julia Julia
I Am the Walrus I Am the Walrus
I Want to Hold Your Hand I Want to Hold Your Hand
Drive My Car / The Word / What You're Doing 
Gnik Nus 
Something Something
Blue Jay Way Blue Jay Way
Being For The Benefit Of Mr. Kite! / I Want You (she's So Heavy) / Helter Skelter 
Help! Help!
Blackbird / Yesterday 
Strawberry Fields Forever Strawberry Fields Forever
Within You Without You / Tomorrow Never Knows 
Lucy in the Sky With Diamonds Lucy in the Sky With Diamonds
Octopus's Garden Octopus's Garden
Lady Madonna Lady Madonna
Here Comes the Sun Here Comes the Sun
The Inner Light The Inner Light
Come Together / Dear Prudence 
Cry Baby Cry Cry Baby Cry
Revolution Revolution
Back in the U.S.S.R. Back in the U.S.S.R.
While My Guitar Gently Weeps While My Guitar Gently Weeps
A Day in the Life A Day in the Life
Hey Jude Hey Jude
Sgt. Pepper's Lonely Hearts Club Band (Reprise) Sgt. Pepper's Lonely Hearts Club Band (Reprise)
All You Need Is Love All You Need Is Love

(c) 2019 Serge Girard