Alan Aldrigde, The Beatles Illustrated Lyrics John Lennon, Paul McCartney, Ringo Starr en George Harrison Alan Aldrigde, The Beatles Illustrated Lyrics (c) Alan Aldrigde, The Beatles Illustrated Lyrics

Index     Home     Vorige    


I Want You (She's So Heavy)

Composer(s) : Lennon and McCartney
Year : 1969

Alan W. Pollack 's "Notes On" I Want You (She's So Heavy)

 
   Dm
E-|------------1---------|-----------1---------|-----------1---------|
B-|---------3-----3------|--------3-----3------|--------3-----3------|
G-|.-----2-----------2---|-----2-----0-----2---|-----1-----------1---|
D-|.--0--------2---------|--3------------------|--2------------------|
A-|----------------------|---------------------|--------------3--2---|
E-|----------------------|---------------------|---------------------|


E-|------------1---------|-----------1---------|
B-|---------3-----3------|--------2-----2------|
G-|------1-----------1---|-----2-----------2--.|
D-|------------------0---|--------------3--2--.|
A-|---1-----------3------|--0------------------|
E-|----------------------|---------------------|


To end the song, replace the last measure with this:

E-|-----------1---5---||
B-|--------2------6---||
G-|-----2---------6---||
D-|-------------------||
A-|--0----------------||
E-|-------------------||



----------------------------------------------
I Want You (She's So Heavy)
The Beatles

   |-------------------------|-------------6-----6-----|   |-------5-----|
   |---------------------3---|-0-------3---------6---6-|   |-----6-6-----|
12 |-------------------2---2-|-1-----4---4-----7---7---| 6 |---6-6-6-----|
-- |-0---0-3-0-------0-3-0---|-----0-3-----8-8-------7-| - |-7---7-7-----|
8  |---0-------0---0---------|---2---------------------| 8 |-------------|
   |-------------1-----------|-------------------------|   |-------------|
     |_|_| |_|_| |_|_| |_|_|   |_|_| |_|_| |_|_| |_|_|       |_|_| |.

   |-------------------------|-------------------------|   |-------------|
12 |-------------------------|-------3-----------------| 6 |-------------|
-- |-5---------------------0-|---------3-2-1-----1-3-5-| - |-0-----0-----|
8  |-------0-----1-----3-----|-0-----------------------| 8 |-------------|
     |.    |.    |.    |  _|   |.    |_|_| |.    |_|_|       |.    |.



  |---------|   ||---------------|--------------------|-----------------|
  |---------|   ||---------------|------------------6-|-----------------|
2 |-----5---| 4 ||o-7(9)---------|---------5----7-----|-7-5-----5---7---|
- |---7-----| - ||o--------------|-------7------------|-----7-----------|
4 |---------| 4 ||---------------|--------------------|-----------------|
  |---------|   ||---------------|--------------------|-----------------|
    ;_| |           |              ; ; ;_| |____|   |   |_| |   |   |
      I want        you                  I want you so  bad
  |---------|   ||---------------|--------------------|-----------------|
2 |---------| 4 ||o--------2-0---|--------------------|------------2-0--|
- |---------| - ||o-0----------3-|-0------------------|-0--------------3|
4 |---------| 4 ||---------------|------------------0-|-----------------|
                    d.     |=|_|   d.               |   d.         |=|_|



|-------------------|-------------------------|----------------------------|
|-------------------|-------------------------|----------------------------|
|-------------5-----|-7(8)(7)(8)(7)(8)(7)p52-|-------------5----7---7(8)--|
|-----------7-------|-------------------------|-----------7----------------|
|-------------------|-------------------------|----------------------------|
|-------------------|-------------------------|----------------------------|
  ; ; ; ; ;_| |       |_|__|__|  |__|__|==|_|   ; ; ; ; ;_| |____|___|_|
            I want    you                                 I want you so
|-------------------|-------------------------|----------------------------|
|-------------2-0---|-------------------------|----------------------2-0---|
|-0---------------3-|-0-----------------------|-0---0--------------------3-|
|-------------------|------------------0------|----------------------------|
  d.          |=|_|   d.               |        |   |   ; ; ;    ;   |=|_|



|-----------------|-------------------|-------------------|----------------|
|-----------------|-------------------|-------------------|----------------|
|-7-5-----5-------|-------------------|-------------------|----------------|
|-----7-------7---|-5------5--7---5---|-------------------|----------------|
|-----------------|---7---------------|-7-5----3--0-------|----------------|
|-----------------|-------------------|-------------------|----------------|
  |_| |   |   |     |_|    |  |   |     |_|    |  d
  bad         it's driving me mad it's driving me mad
|-----------------|-------------------|-------------------|----------------|
|-----------------|-0-----------------|-------------------|----------------|
|-0-------3-------|-------------------|-----------0-----0-|-0-------0----3-|
|-----------------|-----------1-------|-3------4----------|----------------|
  d       d         d         d         |      |  |.   _|   d       |.  _|

  |--------|   |-------------|---------------------------|---------------------|
  |------6-|   |-8(10)-------|--------------------8--10--|-8-------------10----|
2 |---7----| 4 |-------------|---7---7-----7-10----------|---10-7---10---------|
- |--------| - |-------------|---------------------------|---------------------|
4 |--------| 4 |-------------|---------------------------|---------------------|
  |--------|   |-------------|---------------------------|---------------------|
    ;_|  |       |             ;_|   |_____| |____|   |    |__| |    |    |
       I want    you            (You know) I want you so   bad            babe
  |--------|   |-------------|---------------------------|---------------------|
2 |--------| 4 |-------------|-0-0---0-------------------|-0---------0---------|
- |(3)-0-4-| - |-0-----0---0-|--------------------5---3-0|----------------5p3p0|
4 |--------| 4 |-------------|---------------------------|---------------------|
    |__| |       d     |   |   |_|   |       ;   _|   |_|  d         |    |=|_|



|------------------|---------------------------|-------------------------|
|------------6-----|-8(10)(8)(10)(8)(10)(8)--6-|------------------8---10-|
|----------7-------|---------------------------|---7---7-----7-10--------|
|------------------|---------------------------|-------------------------|
|------------------|---------------------------|-------------------------|
|------------------|---------------------------|-------------------------|
          _| |       |__|__|__|   |__|___|___|   ;_|   |_____| |____|   |
           I want    you                          (You know) I want you so
|------------------|---------------------------|-------------------------|
|-0------3-0-------|-0------------0------------|-0-----------5----3---0--|
|------------3-0---|---------------------3p0---|-------------------------|
|----------------3-|-------------------------0-|-------------------------|
  d      |_| |=|_|   d            |      |=|_|   d           |____|   |



|----------------|-------------------|   |-----------|   |-----------------|
|-8-6-----6------|-------------------|   |-----------|   |-0---6-6-6-6---6-|
|-----7-------7--|-5-------5--7---5--| 2 |-----------| 4 |-----7-7-7-7---7-|
|----------------|----7--------------| - |-5--6----7-| - |-2---6-6-6-6---6-|
|----------------|-------------------| 4 |-----------| 4 |-----7-7-7-7---7-|
|----------------|-------------------|   |-----------|   |-----------------|
  |_| |   |   |    |__|    |  |   |        |__|____|       |   |_| |_| ;_|
  bad         it's driving me mad it's     driving me      mad
|----------------|-------------------|   |-----------|   |-----------------|
|-0--------------|-------------------| 2 |-0--0----2-| 4 |-----------------|
|----------------|-3----------1------| - |-----------| - |-----------------|
|---------1------|-------------------| 4 |-----------| 4 |-0-0-0-0-0-0-0-0-|
  d       d        d          d            |__|____|       |_|_|_| |_|_|_|


                                          +-----------------|
                                          | 1               |
                                          |                 |
|-----------------------|-----------------|-----------------||
|-6-6-------------------|-----6-6-6-6-6-6-|-6---------------||
|-7-7-------------------|-----7-7-7-7-7-7-|-7-----------5--o||
|-6-6-------------------|-----6-6-6-6-6-6-|-6---------7----o||
|-7-7-------------------|-----7-7-7-7-7-7-|-7---------------||
|-----------------------|-----------------|-----------------||
  |_|                     ; ; |_| |_|_|_|   |   ; ; ;_| |
                                                      I want
|-----------------------|-----------------|-----------------||
|-----------------------|-----------------|----------------o||
|-------------7-(7)-5---|-----------------|----------------o||
|-0-4-2-1-0-7---------5-|-0-0-0-0-0-0-0-0-|-0---------------||
  |_|_|_| |_|=|  |==|_|   |_|_|_| |_|_|_|   d


+-----------------
| 2,3
|
|-----------------|    |-------------------------|-------------4--4--------|
|-6---------------|    |-------------------------|---------3-0-3--3--------|
|-7------5-----7--| 12 |-------------------------|-------------3--3--------|
|-6---------------| -- |-0---0-3-0-------0-3-0---|-----0-3-----3--3--------|
|-7---------------| 8  |---0-------0---0-------0-|---2---------------------|
|-----------------|    |-------------1-----------|-4-----------------------|
  |  ; ; |     |         |_|_| |_|_| |_|_| |_|_|   |_|_| |_|_| | _|  ; ; ;
         She's so                                              heavy
|-----------------|    |-------------------------|-------------------------|
|-----------------| 12 |-0-----------------------|-----------------------0-|
|-----------------| -- |-----------------------0-|---------3-2-1---3-1-3---|
|-0---------------| 8  |-------0-----1-----3-----|-0----(0)----------------|
  d                      |.    |.    |.    |  _|   |.    |_|_| |  _| |_|_|



  |-1---------------|    |-5-5---------5-5--(5)----|-7------------------------|
  |-2---------------|    |-6-6---6-6---6-6--(6)----|-9-9-9--------------------|
6 |-2---------------| 12 |-7---7-7---7-5-5-5-5-5-5-|-7-7-7--------------------|
- |-3---------------| -- |---7-----7---7-7-7-7-7-7-|-9-9-9-----------0-3--0---|
8 |-----------------| 8  |-------------5-5---------|-7-----7------------------|
  |-----------------|    |-------------------------|---------8-7-6-6--------4-|
    d                      |_|_| |_|_| |_|_| |_|_|   |_|_| |_|_| |_|_| |__|_|
            She's so       heavy heavy heavy
  |-----------------|    |-------------------------|--------------------------|
6 |---------------3-| 12 |-0-----------------------|------------------------0-|
- |-0-0-4-0-4-------| -- |-----------------------0-|---------3-2-1----(1)-3---|
8 |-----------------| 8  |-------0-----1-----3-----|-0----(0)-----------------|
    |_|_| |_|_____|        |.    |.    |.    |  _|   |.    |_|_| |.    |__|_|



  |------------|   |----------||
  |-2-----2----|   |----------||
6 |-2-----2----| 2 |-----5---o||
- |-2-----3----| - |---7-----o||
8 |-0-0-4-0----| 4 |----------||
  |------------|   |----------||
    |_|_| |.         ;_| |
                       I want
  |------------|   |----------||
6 |-----2------| 2 |---------o||
- |-0-4---0----| - |---------o||
8 |------------| 4 |----------||
    |_|_| |.






I Want You (She's So Heavy)
The Beatles

|Dm               |E7-9    Bb     |

A+           F        Am
               I want you      I want you so bad    I want you
Am                      Dm7        F        G       G#+  Am    Am7
I want you so bad  it's driving me mad it's driving me   mad
       Dm   Dm7                                           Dm
I want you      You know I want you so bad babe.   I want you
                                C          Bb                   E7-9
You know I want you so bad it's driving me mad it's driving me  mad

E7-9 = xx0101
A+ = xx3221
G#+ = xx2110
 
 


Ook op Abbey Road:

ChordsNotes On
Come Together Come Together
Something Something
Maxwell's Silver Hammer Maxwell's Silver Hammer
Oh! Darling Oh! Darling
Octopus's Garden Octopus's Garden
I Want You (She's So Heavy) I Want You (She's So Heavy)
Here Comes the Sun Here Comes the Sun
Because Because
You Never Give Me Your Money You Never Give Me Your Money
Sun King Sun King
Mean Mr. Mustard Mean Mr. Mustard
Polythene Pam Polythene Pam
She Came in Through the Bathroom Window She Came in Through the Bathroom Window
Golden Slumbers Golden Slumbers
Carry That Weight Carry That Weight
The End The End
Her Majesty Her Majesty

(c) 2019 Serge Girard