Alan Aldrigde, The Beatles Illustrated Lyrics John Lennon, Paul McCartney, Ringo Starr en George Harrison Alan Aldrigde, The Beatles Illustrated Lyrics (c) Alan Aldrigde, The Beatles Illustrated Lyrics

Index     Home     Vorige    


The Inner Light

Composer(s) : Harrison
Year : 1967

Alan W. Pollack 's "Notes On" The Inner Light


 

E|--------------------------------------|
B|---------------1---1------------------|
G|---------1-0-----3---3-1-0-1-0--------|
D|-1-1-1-3-----1------------------1-1-1-|
A|--------------------------------------|
E|--------------------------------------|


E|--------------------------------------------|
B|-----1--------------------------------------|
G|-3-3---1-1-3-0-0-1----0-1-1-3-0-0-1-----0---|
D|------------------3-3---------------3-3---1-|
A|--------------------------------------------|
E|--------------------------------------------|

Play this whole thing above twice then play this part once

E|-------------------------------------------------------|
B|-4-4-4-2-2-2-1-1-1-------------------------------------|
G|-------------------3-3-3-1-1-1-0-0-0-------------0-1-3-|
D|-------------------------------------3\1-3\1-3\1-------|
A|-------------------------------------------------------|
E|-------------------------------------------------------|

For the outro you can keep repeating this little bit:

E|--------------------
B|--------------------
G|-0-1-3--------------
D|--------------------
A|--------------------
E|--------------------





Ook op Past Masters, Vols. 2:

ChordsNotes On
Day Tripper Day Tripper
We Can Work It Out We Can Work It Out
Across the Universe Across the Universe
Paperback Writer Paperback Writer
Rain Rain
Lady Madonna Lady Madonna
Let It Be Let It Be
The Inner Light The Inner Light
Hey Jude Hey Jude
Revolution Revolution
Get Back Get Back
Don't Let Me Down Don't Let Me Down
The Ballad of John and Yoko The Ballad of John and Yoko
Old Brown Shoe Old Brown Shoe
You Know My Name (Look Up the Number) You Know My Name (Look Up the Number)

Ook op Love:

ChordsNotes On
Because Because
Get Back Get Back
Glass Onion Glass Onion
Eleanor Rigby Eleanor Rigby
Julia Julia
I Am the Walrus I Am the Walrus
I Want to Hold Your Hand I Want to Hold Your Hand
Drive My Car / The Word / What You're Doing 
Gnik Nus 
Something Something
Blue Jay Way Blue Jay Way
Being For The Benefit Of Mr. Kite! / I Want You (she's So Heavy) / Helter Skelter 
Help! Help!
Blackbird / Yesterday 
Strawberry Fields Forever Strawberry Fields Forever
Within You Without You / Tomorrow Never Knows 
Lucy in the Sky With Diamonds Lucy in the Sky With Diamonds
Octopus's Garden Octopus's Garden
Lady Madonna Lady Madonna
Here Comes the Sun Here Comes the Sun
The Inner Light The Inner Light
Come Together / Dear Prudence 
Cry Baby Cry Cry Baby Cry
Revolution Revolution
Back in the U.S.S.R. Back in the U.S.S.R.
While My Guitar Gently Weeps While My Guitar Gently Weeps
A Day in the Life A Day in the Life
Hey Jude Hey Jude
Sgt. Pepper's Lonely Hearts Club Band (Reprise) Sgt. Pepper's Lonely Hearts Club Band (Reprise)
All You Need Is Love All You Need Is Love

(c) 2019 Serge Girard