Alan Aldrigde, The Beatles Illustrated Lyrics John Lennon, Paul McCartney, Ringo Starr en George Harrison Alan Aldrigde, The Beatles Illustrated Lyrics (c) Alan Aldrigde, The Beatles Illustrated Lyrics

Index     Home     Vorige    


Michelle

Composer(s) : Lennon and McCartney
Year : 1965

Alan W. Pollack 's "Notes On" Michelle

Selecteer gewenste toonaard :


Oorspronkelijke toonaard:  F
Getoonde toonaard:  
m6 -5 = DIM akkoord


(verse 1)
       m7     6                  m6 -5 m6 -5 m6 -5    m6 -5    
 Michelle, ma belle, these are words that go       to-    gether    well, my        Michelle

       m7     6                  m6 -5 m6 -5 m6 -5    m6 -5    
 Michelle, ma belle, sont les mots qui    vont     tres bien ensemble,    tres bien ensemble

m                                  7                 
 I love you, I love you, I love you, that's all I want to say

7                  m
 until I find a way 

      m    mmaj7 m7 m6       m7     
I will say the only words I know that you'll understand.


Chorus

    I need you, I need you, I need you, I need to make you see
    oh what you mean to me
    until I do I'm hoping you will know what I mean
 

Chorus 

    I want you, I want you, I want you, I think you know by now
    I'll get to you somehow
    until I do I'm telling you so you'll understand

       m7     6                  m6 -5 m6 -5  m6 -5    m6 -5    
 Michelle, ma belle sont les mots qui     vont    tres bien ensemble,    tres bien ensemble

     m    mmaj7 m7 m6       m7          m  
I will say the only words I know that you'll understand, my Michelle


intro / brigde / outro (in F):
-----9-------9-----9-----9--------9--7--------8--------------------------------------------------
---- 10------10----10----10-------7----8------5--------------------------------------------------
--11------10-----9-----8----------7-----------5--------------------------------------------------
----------------------------------7-----------5--------------------------------------------------
-------------------------------------------------------------------------------------------------
-------------------------------------------------------------------------------------------------
  Fm      Fmmaj7 Fm7    Fm6       Bbm/F       C     



solo (in F):
-------------------------------------------------------------------------------------------------
-------------------------------------------------------------------------------------------------
-------------------------------------------------------------------------------------------------
-------------------------------------------------------------------------------------------------
-------------------------------------------------------------------------------------------------
-------------------------------------------------------------------------------------------------
F         Bbm7      Eb6                  Bdim Ddim Fdim    C      Ddim      C 
F         Bbm7      Eb6                  Bdim Ddim Fdim    C      Ddim      C 




Ook op Rubber Soul:

ChordsNotes On
Drive My Car Drive My Car
Norwegian Wood (This Bird Has Flown) Norwegian Wood (This Bird Has Flown)
You Won't See Me You Won't See Me
Nowhere Man Nowhere Man
Think for Yourself Think for Yourself
The Word The Word
Michelle Michelle
What Goes On What Goes On
Girl Girl
I'm Looking Through You I'm Looking Through You
In My Life In My Life
Wait Wait
If I Needed Someone If I Needed Someone
Run for Your Life Run for Your Life

Ook op 1962-1966:

ChordsNotes On
Love Me Do Love Me Do
Please Please Me Please Please Me
From Me to You From Me to You
She Loves You She Loves You
I Want to Hold Your Hand I Want to Hold Your Hand
All My Loving All My Loving
Can't Buy Me Love Can't Buy Me Love
A Hard Day's Night A Hard Day's Night
And I Love Her And I Love Her
Eight Days a Week Eight Days a Week
I Feel Fine I Feel Fine
Ticket to Ride Ticket to Ride
Yesterday Yesterday
Help! Help!
You've Got to Hide Your Love Away You've Got to Hide Your Love Away
We Can Work It Out We Can Work It Out
Day Tripper Day Tripper
Drive My Car Drive My Car
Norwegian Wood (This Bird Has Flown) Norwegian Wood (This Bird Has Flown)
Nowhere Man Nowhere Man
Michelle Michelle
In My Life In My Life
Girl Girl
Paperback Writer Paperback Writer
Eleanor Rigby Eleanor Rigby
Yellow Submarine Yellow Submarine

(c) 2019 Serge Girard