Alan Aldrigde, The Beatles Illustrated Lyrics John Lennon, Paul McCartney, Ringo Starr en George Harrison Alan Aldrigde, The Beatles Illustrated Lyrics (c) Alan Aldrigde, The Beatles Illustrated Lyrics

Index     Home     Vorige    


Eight Days a Week

Composer(s) : Lennon and McCartney
Year : 1964

Alan W. Pollack 's "Notes On" Eight Days a Week

 
 
D / / / /

D        / E7    /
Ooh I need your love babe
G       / D     /
Guess you know it's true
D      / E7      /
Hope you need my love babe
G      / D    /
Just like I need you

Bm    / G   /
Hold me, love me
Bm    / E7   /
Hold me, love me

D         / E7   /
Ain't got nothin' but love babe
G   / D    /
Eight days a week

D        / E7       /
Love you every day girl
G      / D /
Always on my mind
D       / E7     /
One thing I can say girl
G        / D  /
Love you all the time

Bm    / G   /
Hold me, love me
Bm    / E7   /
Hold me, love me

D         / E7   /
Ain't got nothin' but love babe
G   / D    /
Eight days a week



A   / /
Eight days a week
Bm     / /
I love you
E7   / /
Eight days a week
G   / A7     /
Is not enough to show I care

D        / E7    /
Ooh I need your love babe
G       / D     /
Guess you know it's true
D      / E7      /
Hope you need my love babe
G      / D    /
Just like I need you

Bm    / G   /
Hold me, love me
Bm    / E7   /
Hold me, love me

D         / E7   /
Ain't got nothin' but love babe
G   / D    /
Eight days a week

A   / /
Eight days a week
Bm     / /
I love you
E7   / /
Eight days a week
G   / A7     /
Is not enough to show I care

D        / E7       /
Love you every day girl
G      / D /
Always on my mind
D       / E7     /
One thing I can say girl
G        / D  /
Love you all the time

Bm    / G   /
Hold me, love me
Bm    / E7   /
Hold me, love me

D         / E7   /
Ain't got nothin' but love babe
G   / D    /
Eight days a week
G   / D    /
Eight days a week
G   / D    /
Eight days a week

D / E7 / Em7 / D /


Bass:
   D             E7                G               D	
G |------------|---------------|---------------|--------------
D |0-----------|---------------|---------0-----|---0----------
A |---2--0-----|---------2-----|------2-----2--|------2--0----
E |---------2--|---0--4-----4--|---3-----------|------------2-

	(Hold me...)
   Bm                           G 
G |---------------------------|-----------------------
D |---------------------------|-----------------------
A |---2-----2--2--2--2--2--2--|-----------------------
E |---------------------------|-3-----3--3--3--3--3--3-


	(Hold me...) cont.
   Bm                           E7 
G |---------------------------|------------------------
D |---------------------------|------------------------
A |-2-----2--2--2--2--2--2----|------------------------
E |---------------------------|-0-----0--0--0--0--0--0-
 

Chorus (8 days a week, I loooooove you)
    A          A            Bm           Bm 
G |-----------|------------|------------|-------------
D |-----------|------------|------------|-------------
A |0--0--0--0-|-0--0--0--0-|-2--2--2--2-|-2--2--2--2--
E |-----------|------------|------------|-------------
                                        

Chorus cont.       
    E           E           G           A7	
G |-----------|-------------------------------------
D |-----------|-------------------------------------
A |-----------|-------------------------0--0--0--0--
E |0--0--0--0-|-0--0--0--0--3--3--3--3--------------



 12/8 Time


  Intro
  D               D6   D      E               E6/D E
e|5----- ----5- 5H7--- 5-----|7----- ----7- 7H9--- 7-----|
B|7----------7--7------7-----|9----------9--9------9-----|
G|7----------7--7------7-----|9----------9--9------9-----|
D|0----------0--0------0-----|0----------0--0------0-----|
A|---------------------------|---------------------------|
E|---------------------------|---------------------------|
  .......................Fade in.........................
e|0----- ----0- 0----- 0-----|0----- ----0- 0----- 0-----|
B|3----------3--3------3-----|0----------0--0------0-----|
G|2----------2--2------2-----|1----------1--1------1-----|
D|0----------0--0------0-----|0----------0--0------0-----|
A|---------------------------|---------------------------|
E|---------------------------|---------------------------|



  G                G6/D G     D               D6   D  
e|10---- ----10 10H12- 10----|5----- ----5- 5H7--- 5-----|
B|12---------12-12-----12----|7----------7--7------7-----|
G|12---------12-12-----12----|7----------7--7------7-----|
D|-0----------0--0------0----|0----------0--0------0-----|
A|---------------------------|---------------------------|
E|---------------------------|---------------------------|
 
e|0----- ----0- 0----- 0-----|0----- ----0- 0----- 0-----|
B|3----------3--3------3-----|3----------3--3------3-----|
G|0----------0--0------0-----|2----------2--2------2-----|
D|0----------0--0------0-----|0----------0--0------0-----|
A|---------------------------|---------------------------|
E|---------------------------|---------------------------|


  Verse

  D                           E                        G
e|2----- 2----- 2----- 2-----|0----- 0----- 0---0- 0---3-|
B|3------3------3------3-----|0------0------0---0--0---3-|
G|2------2------2------2-----|1------1------1---1--1---0-|
D|0------0------0------0-----|2------2------2---2--2---0-|
A|---------------------------|2------2------2---2--2---2-|
E|---------------------------|0------0------0---0--0---3-|
  Oooh   I      need   your   love,     babe,
e|------ ------ ----2- ------|------ 0----- ----0- ------|
B|------------------3--------|-------0----------0--------|
G|------------------2--------|-------1----------1--------|
D|---------------------------|---------------------------|
A|---------------------------|---------------------------|
E|---------------------------|---------------------------|


                              D
e|3----- 3----- 3----- 3-----|2----- 2----- 2---2- 2---2-|
B|3------3------3------3-----|3------3------3---3--3---3-|
G|0------0------0------0-----|2------2------2---2--2---2-|
D|0------0------0------0-----|0------0------0------0-----|
A|2------2------2------2-----|---------------------------|
E|3------3------3------3-----|---------------------------|
  Guess  you    know   it's true.
e|------ 3----- ----3- ----3-|------ 2----- ----2- ------|
B|-------3----------3------3-|-------3----------3------3-|
G|-------4----------4------4-|-------2----------2------2-|
D|---------------------------|---------------------------|
A|---------------------------|---------------------------|
E|---------------------------|---------------------------|


  D                           E
e|2----- 2----- 2----- 2-----|0----- 0---0- 0----- 0-----|
B|3------3------3------3-----|0------0---0--0------0-----|
G|2------2------2------2-----|1------1---1--1------1-----|
D|0------0------0------0-----|2------2---2--2------2-----|
A|---------------------------|2------2---2--2------2-----|
E|---------------------------|0------0---0--0------0-----|
  Hope   you    need   my     love,      babe,
e|------ 2----- ----2- ------|------ 0----- ----0- ------|
B|-------3----------3------0-|-------0----------0------0-|
G|-------2----------2------1-|-------1----------1------1-|
D|---------------------------|---------------------------|
A|---------------------------|---------------------------|
E|---------------------------|---------------------------|


  G                           D
e|3----- 3----- 3----- 3-----|2----- 2----- 2---2- 2-----|
B|3------3------3------3-----|3------3------3---3--3-----|
G|0------0------0------0-----|2------2------2---2--2-----|
D|0------0------0------0-----|0------0------0---0--0-----|
A|2------2------2------2-----|---------------------------|
E|3------3------3------3-----|---------------------------|
  just   like   I      need you
e|------ 3----- ----3- ----3-|------ 2----- ----2- ------|
B|-------3----------3------3-|-------3----------3--------|
G|-------4----------4------4-|-------2----------2--------|
D|---------------------------|---------------------------|
A|---------------------------|---------------------------|
E|---------------------------|---------------------------|


  Bm                          G 
e|2----- ----2- ----2- 2---2-|3----- ----3- ----3- 3-----|
B|3----------3------3--3---3-|3----------3------3--3-----|
G|4----------4------4--4---4-|0----------0------0--0-----|
D|4----------4------4--4---4-|0----------0------0--0-----|
A|2----------2------2--2---2-|2----------2------2--2-----|
E|---------------------------|3----------3------3--3-----|
  Hold      me                Love      me


  Bm                       E
e|2----- ----2- ----2- 2---0-|0----- 0---0- ----0- 0-----|
B|3----------3------3--3---0-|0------0---0------0--0-----|
G|4----------4------4--4---1-|1------1---1------1--1-----|
D|4----------4------4--5---2-|2------2---2------2--2-----|
A|2----------2------2--2---2-|2------2---2------2--2-----|
E|-------------------------0-|0------0---0------0--0-----|
   Hold      me                Love      me           ain't


  D                           E
e|2----- 2----- 2---2- 2-----|0----- 0---0- 0---0- 0-----|
B|3------3------3---3--3-----|0------0---0--0---0--0-----|
G|2------2------2---2--2-----|1------1---1--1---1--1-----|
D|0------0------0---0--0-----|2------2---2--2---2--2-----|
A|---------------------------|2------2---2--2---2--2-----|
E|---------------------------|0------0---0--0---0--0-----|
         got    nothing but   love,     babe,
e|------ 2----- ----2- ----0-|------ 0----- ----0- ----0-|
B|-------3----------3------0-|-------0----------0------0-|
G|-------2----------2------1-|-------1----------1------1-|
D|---------------------------|---------------------------|
A|---------------------------|---------------------------|
E|---------------------------|---------------------------|


  G                           D
e|3----- 3----- 3----- 3-----|2----- 2---2- 2---2- 2-----|
B|3------3------3------3-----|3------3---3--3---3--3-----|
G|0------0------0------0-----|2------2---2--2---2--2-----|
D|0------0------0------0-----|0------0---0--0---0--0-----|
A|2------2------2------2-----|---------------------------|
E|3------3------3------3-----|---------------------------|
         eight   days     a   week
e|------ 3----- ----3- ----3-|------ 2----- ----2- ----2-|
B|-------3----------3------3-|-------3----------3------3-|
G|-------4----------4------4-|-------2----------2------2-|
D|---------------------------|---------------------------|
A|---------------------------|---------------------------|
E|---------------------------|---------------------------|


  Verse

  D                           E                        G
e|2----- 2---2- 2----- 2---2-|0----- 0---0- 0---0- 0-----|
B|3------3---3--3------3---3-|0------0---0--0---0--0-----|
G|2------2---2--2------2---2-|1------1---1--1---1--1-----|
D|0------0---0--0------0---0-|2------2---2--2---2--2-----|
A|---------------------------|2------2---2--2---2--2-----|
E|---------------------------|0------0---0--0---0--0-----|
  Love   you    ev'....ry  day,         girl
e|------ 2----- ----2- ----2-|------ 0----- ----0- ----0-|
B|-------3----------3------3-|-------0----------0------0-|
G|-------2----------2------2-|-------1----------1------1-|
D|---------------------------|---------------------------|
A|---------------------------|---------------------------|
E|---------------------------|---------------------------|


                              D
e|3----- 3----- 3----- 3-----|2----- 2----- 2---2- 2---2-|
B|3------3------3------3-----|3------3------3---3--3---3-|
G|0------0------0------0-----|2------2------2---2--2---2-|
D|0------0------0------0-----|0------0------0---0--0---0-|
A|2------2------2------2-----|---------------------------|
E|3------3------3------3-----|---------------------------|
  Always        on     my  mind
e|------ 3----- ----3- ----3-|------ 2----- ----2- ----2-|
B|-------3----------3------3-|-------3----------3------3-|
G|-------4----------4------4-|-------2----------2------2-|
D|---------------------------|---------------------------|
A|---------------------------|---------------------------|
E|---------------------------|---------------------------|


  D                        E                        
e|2----- 2----- 2---2- 2---0-|0----- 0----- 0---0- 0-----|
B|3------3------3---3--3---0-|0------0------0---0--0-----|
G|2------2------2---2--2---1-|1------1------1---1--1-----|
D|0------0------0---0--0---2-|2------2------2---2--2-----|
A|-------------------------2-|2------2------2---2--2-----|
E|-------------------------0-|0------0------0---0--0-----|
  One    thing  I      can    say,      girl
e|------ 2----- ----2- ----2-|------ 0----- ----0- ----0-|
B|-------3----------3------3-|-------0----------0------0-|
G|-------2----------2------2-|-------1----------1------1-|
D|---------------------------|---------------------------|
A|---------------------------|---------------------------|
E|---------------------------|---------------------------|


  G                           D
e|3----- 3----- 3----- 3-----|2----- 2----- 2---2- 2---2-|
B|3------3------3------3-----|3------3------3---3--3---3-|
G|0------0------0------0-----|2------2------2---2--2---2-|
D|0------0------0------0-----|0------0------0---0--0---0-|
A|2------2------2------2-----|---------------------------|
E|3------3------3------3-----|---------------------------|
  Love   you    all    the time
e|------ 3----- ----3- ----3-|------ 2----- ----2- ------|
B|-------3----------3------3-|-------3----------3--------|
G|-------4----------4------4-|-------2----------2--------|
D|---------------------------|---------------------------|
A|---------------------------|---------------------------|
E|---------------------------|---------------------------|


  Bm                          G 
e|2----- ----2- ----2- 2---2-|3----- ----3- ----3- 3-----|
B|3----------3------3--3---3-|3----------3------3--3-----|
G|4----------4------4--4---4-|0----------0------0--0-----|
D|4----------4------4--4---4-|0----------0------0--0-----|
A|2----------2------2--2---2-|2----------2------2--2-----|
E|---------------------------|3----------3------3--3-----|
  Hold      me                Love      me


  Bm                       E
e|2----- ----2- ----2- 2---0-|0----- 0---0- 0---0- 0-----|
B|3----------3------3--3---0-|0------0---0--0---0--0-----|
G|4----------4------4--4---1-|1------1---1--1---1--1-----|
D|4----------4------4--5---2-|2------2---2--2---2--2-----|
A|2----------2------2--2---2-|2------2---2--2---2--2-----|
E|-------------------------0-|0------0---0--0---0--0-----|
   Hold      me                Love      me           ain't


  D                           E
e|2----- 2----- 2----- 2-----|0----- 0---0- 0----- 0-----|
B|3------3------3------3-----|0------0---0--0------0-----|
G|2------2------2------2-----|1------1---1--1------1-----|
D|0------0------0------0-----|2------2---2--2------2-----|
A|---------------------------|2------2---2--2------2-----|
E|---------------------------|0------0---0--0------0-----|
         got    nothing but   love,     girl,
e|------ 2----- ----2- ----0-|------ 0----- ----0- ----0-|
B|-------3----------3------0-|-------0----------0------3-|
G|-------2----------2------1-|-------1----------1------1-|
D|---------------------------|---------------------------|
A|---------------------------|---------------------------|
E|---------------------------|---------------------------|


  G                           D
e|3----- 3----- 3----- 3-----|2----- 2---2- 2----- 2-----|
B|3------3------3------3-----|3------3---3--3------3-----|
G|0------0------0------0-----|2------2---2--2------2-----|
D|0------0------0------0-----|0------0---0--0------0-----|
A|2------2------2------2-----|---------------------------|
E|3------3------3------3-----|---------------------------|
         eight   days     a   week
e|------ 3----- ----3- ----2-|------ 2----- ----2- ------|
B|-------3----------3------3-|-------3----------3--------|
G|-------4----------4------2-|-------2----------2--------|
D|---------------------------|---------------------------|
A|---------------------------|---------------------------|
E|---------------------------|---------------------------|


  Middle eight

  A
e|0----- 0---0- 0----- 0-----|0----- 0----- 0---0- 0-----|
B|2------2---2--2------2-----|2------2------2---2--2-----|
G|2------2---2--2------2-----|2------2------2---2--2-----|
D|2------2---2--2------2-----|2------2------2---2--2-----|
A|0------0---0--0------0-----|0------0------0---0--0-----|
E|---------------------------|---------------------------|
  Eight          days      a  week                     I


  Bm
e|2----- ------ ------ ------|------ ------ ----2- 2---0-|
B|3--------------------------|------------------3--3---0-|
G|4--------------------------|------------------4--4---1-|
D|4--------------------------|------------------4--4---2-|
A|2--------------------------|------------------2--2---2-|
E|---------------------------|-------------------------0-|
  lo..........................ve you

  E

e|0----- 0----- 0----- 0---0-|0----- 0----- 0---0- 0-----|
B|0------0------0------0---0-|0------0------0---0--0-----|
G|1------1------1------1---1-|1------1------1---1--1-----|
D|2------2------2------2---2-|2------2------2---2--2-----|
A|2------2------2------2---2-|2------2------2---2--2-----|
E|0------0------0------0---0-|0------0------0---0--0-----|
  Eight          days      a  week                     is


  G                           A
e|3----- 3---3- 3----- 3-----|0----- 0---0- 0----- 0-----|
B|3------3---3--3------3-----|2------2---2--2------2-----|
G|0------0---0--0------0-----|2------2---2--2------2-----|
D|0------0---0--0------0-----|2------2---2--2------2-----|
A|2------2---2--2------2-----|0------0---0--0------0-----|
E|3------3---3--3------3-----|---------------------------|
  not    enough        to     show I   care
e|------ ------ ------ ------|------ ------ ------ ----2-|
B|---------------------------|-------------------------3-|
G|---------------------------|-------------------------2-|
D|---------------------------|---------------------------|
A|---------------------------|---------------------------|
E|---------------------------|---------------------------|


  Verse

  D                        E                           
e|2----- 2----- 2----- 2---0-|0----- 0---0- 0----- 0-----|
B|3------3------3------3---0-|0------0---0--0------0-----|
G|2------2------2------2---1-|1------1---1--1------1-----|
D|0------0------0------0---2-|2------2---2--2------2-----|
A|-------------------------2-|2------2---2--2------2-----|
E|-------------------------0-|0------0---0--0------0-----|
  Oooh   I      need   your   love,     babe,
e|------ 2----- ------ ------|------ 0----- ----0- ----0-|
B|-------3----------3------3-|-------0----------0------3-|
G|-------2----------2------2-|-------1----------1------1-|
D|-------------------------4-|---------------------------|
A|---------------------------|---------------------------|
E|---------------------------|---------------------------|



                              D
e|3----- 3---3- 3----- 3-----|2----- 2----- 2---2- 2-----|
B|3------3---3--3------3-----|3------3------3---3--3-----|
G|0------0---0--0------0-----|2------2------2---2--2-----|
D|0------0---0--0------0-----|0------0------0------0-----|
A|2------2---2--2------2-----|---------------------------|
E|3------3---3--3------3-----|---------------------------|
  Guess  you    know   it's true.
e|------ 3----- ----3- ------|------ 2----- ----2- ----2-|
B|-------3----------3--------|-------3----------3------3-|
G|-------4----------4--------|-------2----------2------2-|
D|---------------------------|---------------------------|
A|---------------------------|---------------------------|
E|---------------------------|---------------------------|


  D                           E
e|2----- 2---2- 2----- 2-----|0----- 0---0- 0----- 0-----|
B|3------3---3--3------3-----|0------0---0--0------0-----|
G|2------2---2--2------2-----|1------1---1--1------1-----|
D|0------0---0--0------0-----|2------2---2--2------2-----|
A|---------------------------|2------2---2--2------2-----|
E|---------------------------|0------0---0--0------0-----|
  Hope   you    need   my     love,      babe,
e|------ 2----- ----2- ------|------ 0----- ----0- ----0-|
B|-------3----------3------0-|-------0----------0------0-|
G|-------2----------2------1-|-------1----------1------1-|
D|---------------------------|---------------------------|
A|---------------------------|---------------------------|
E|---------------------------|---------------------------|


  G                           D
e|3----- 3----- 3----- 3-----|2----- 2----- 2---2- 2-----|
B|3------3------3------3-----|3------3------3---3--3-----|
G|0------0------0------0-----|2------2------2---2--2-----|
D|0------0------0------0-----|0------0------0---0--0-----|
A|2------2------2------2-----|---------------------------|
E|3------3------3------3-----|---------------------------|
  just   like   I      need you
e|------ 3----- ----3- ----3-|------ 2----- ------ ------|
B|-------3----------3------3-|-------3-------------------|
G|-------4----------4------4-|-------2-------------------|
D|---------------------------|---------------------------|
A|---------------------------|---------------------------|
E|---------------------------|---------------------------|



  Bm                       G 
e|2----- ----2- ----2- 2---3-|3----- ----3- ----3- 3---3-|
B|3----------3------3--3---3-|3----------3------3--3---3-|
G|4----------4------4--4---0-|0----------0------0--0---0-|
D|4----------4------4--4---0-|0----------0------0--0---0-|
A|2----------2------2--2---2-|2----------2------2--2---2-|
E|-------------------------3-|3----------3------3--3---3-|
  Hold      me                Love      me


  Bm                       E
e|2----- 2---2- ----2- 2---0-|0----- ----0- ----0- 0---0-|
B|3------3---3------3--3---0-|0----------0------0--0---0-|
G|4------4---4------4--4---1-|1----------1------1--1---1-|
D|4------4---4------4--5---2-|2----------2------2--2---2-|
A|2------2---2------2--2---2-|2----------2------2--2---2-|
E|-------------------------0-|0----------0------0--0---0-|
   Hold      me                Love      me           ain't


  D                           E
e|2----- 2----- 2---2- 2-----|0----- 0---0- 0----- 0-----|
B|3------3------3---3--3-----|0------0---0--0------0-----|
G|2------2------2---2--2-----|1------1---1--1------1-----|
D|0------0------0---0--0-----|2------2---2--2------2-----|
A|---------------------------|2------2---2--2------2-----|
E|---------------------------|0------0---0--0------0-----|
         got    nothing but   love,     babe,
e|------ 2----- ----2- ----2-|------ 0----- ----0- ----0-|
B|-------3----------3------3-|-------0----------0------0-|
G|-------2----------2------2-|-------1----------1------1-|
D|---------------------------|---------------------------|
A|---------------------------|---------------------------|
E|---------------------------|---------------------------|


  G                           D
e|3----- 3----- 3---3- 3---3-|2----- 2---2- 2---2- 2-----|
B|3------3------3---3--3---3-|3------3---3--3---3--3-----|
G|0------0------0---0--0---0-|2------2---2--2---2--2-----|
D|0------0------0---0--0---0-|0------0---0--0---0--0-----|
A|2------2------2---2--2---2-|---------------------------|
E|3------3------3---3--3---3-|---------------------------|
         eight   days     a   week
e|------ 3----- ----3- ----3-|------ 2----- ----2- ----0-|
B|-------3----------3------3-|-------3----------3------2-|
G|-------4----------4------4-|-------2----------2------2-|
D|---------------------------|---------------------------|
A|---------------------------|---------------------------|
E|---------------------------|---------------------------|


  Middle eight

  A
e|0---0- 0----- 0----- 0-----|0----- 0----- 0----- 0-----|
B|2---2--2------2------2-----|2------2------2------2-----|
G|2---2--2------2------2-----|2------2------2------2-----|
D|2---2--2------2------2-----|2------2------2------2-----|
A|0---0--0------0------0-----|0------0------0------0-----|
E|---------------------------|---------------------------|
  Eight          days      a  week                     I


  Bm
e|2----- ------ ------ ------|------ ------ ----2- 2-----|
B|3--------------------------|------------------3--3-----|
G|4--------------------------|------------------4--4-----|
D|4--------------------------|------------------4--4-----|
A|2--------------------------|------------------2--2-----|
E|---------------------------|---------------------------|
  lo..........................ve you


  E
e|0----- 0----- 0----- 0---0-|0----- 0----- 0----- 0-----|
B|0------0------0------0---0-|0------0------0------0-----|
G|1------1------1------1---1-|1------1------1------1-----|
D|2------2------2------2---2-|2------2------2------2-----|
A|2------2------2------2---2-|2------2------2------2-----|
E|0------0------0------0---0-|0------0------0------0-----|
  Eight          days      a  week                     is
e|------ ------ ------ ------|------ ------ ----0- ------|
B|---------------------------|------------------0--------|
G|---------------------------|------------------1--------|
D|---------------------------|---------------------------|
A|---------------------------|---------------------------|
E|---------------------------|---------------------------|


  G                           A
e|3----- 3----- 3----- 3-----|0----- 0----- 0----- 0-----|
B|3------3------3------3-----|2------2------2------2-----|
G|0------0------0------0-----|2------2------2------2-----|
D|0------0------0------0-----|2------2------2------2-----|
A|2------2------2------2-----|0------0------0------0-----|
E|3------3------3------3-----|---------------------------|
  not    enough        to     show I   care
e|------ 3----- ----3- ----3-|------ 0----- ----0- ----0-|
B|-------3----------3------3-|-------2----------2------0-|
G|-------4----------4------4-|-------2----------2------2-|
D|---------------------------|---------------------------|
A|---------------------------|---------------------------|
E|---------------------------|---------------------------|


  Verse

  D                           E                        
e|2----- 2----- 2----- 2-----|0----- 0----- 0----- 0---0-|
B|3------3------3------3-----|0------0------0------0---0-|
G|2------2------2------2-----|1------1------1------1---1-|
D|0------0------0------0-----|2------2------2------2---2-|
A|---------------------------|2------2------2------2---2-|
E|---------------------------|0------0------0------0---0-|
  Love   you    ev'....ry  day,         girl
e|------ 2----- ----2- ----0-|------ 0----- ----0- ----0-|
B|-------3----------3------0-|-------0----------0------0-|
G|-------2----------2------1-|-------1----------1------1-|
D|---------------------------|---------------------------|
A|---------------------------|---------------------------|
E|---------------------------|---------------------------|


                              D
e|3----- 3----- 3----- 3---3-|2----- 2----- 2---2- 2-----|
B|3------3------3------3---3-|3------3------3---3--3-----|
G|0------0------0------0---0-|2------2------2---2--2-----|
D|0------0------0------0---0-|0------0------0---0--0-----|
A|2------2------2------2---2-|---------------------------|
E|3------3------3------3---3-|---------------------------|
  Always        on     my  mind
e|------ 3----- ----3- ----3-|------ 2----- ----2- ----2-|
B|-------3----------3------3-|-------3----------3------3-|
G|-------4----------4------4-|-------2----------2------2-|
D|---------------------------|---------------------------|
A|---------------------------|---------------------------|
E|---------------------------|---------------------------|


  D                           E                        
e|2----- 2----- 2---2- 2-----|0----- 0----- 0---0- 0-----|
B|3------3------3---3--3-----|0------0------0---0--0-----|
G|2------2------2---2--2-----|1------1------1---1--1-----|
D|0------0------0---0--0-----|2------2------2---2--2-----|
A|---------------------------|2------2------2---2--2-----|
E|---------------------------|0------0------0---0--0-----|
  One    thing  I      can    say,      girl
e|------ 2----- ----2- ----2-|------ 0----- ----0- ----0-|
B|-------3----------3------3-|-------0----------0------0-|
G|-------2----------2------2-|-------1----------1------1-|
D|---------------------------|---------------------------|
A|---------------------------|---------------------------|
E|---------------------------|---------------------------|


  G                           D
e|3----- 3---3- 3----- 3-----|2----- 2----- 2---2- 2-----|
B|3------3---3--3------3-----|3------3------3---3--3-----|
G|0------0---0--0------0-----|2------2------2---2--2-----|
D|0------0---0--0------0-----|0------0------0---0--0-----|
A|2------2---2--2------2-----|---------------------------|
E|3------3---3--3------3-----|---------------------------|
  Love   you    all    the time
e|------ 3----- ----3- ------|------ 2----- ----2- ------|
B|-------3----------3------3-|-------3----------3--------|
G|-------4----------4------4-|-------2----------2--------|
D|---------------------------|---------------------------|
A|---------------------------|---------------------------|
E|---------------------------|---------------------------|



  Bm                       G 
e|2----- ----2- ----2- 2---3-|3----- 3---3- ----3- 3---3-|
B|3----------3------3--3---3-|3------3---3------3--3---3-|
G|4----------4------4--4---0-|0------0---0------0--0---0-|
D|4----------4------4--4---0-|0------0---0------0--0---0-|
A|2----------2------2--2---2-|2------2---2------2--2---2-|
E|-------------------------3-|3------3---3------3--3---3-|
  Hold      me                Love      me


  Bm                       E
e|2----- 2---2- 2---2- 2---0-|0----- 0---0- 0---0- 0-----|
B|3------3---3--3---3--3---0-|0------0---0--0---0--0-----|
G|4------4---4--4---4--4---1-|1------1---1--1---1--1-----|
D|4------4---4--4---4--5---2-|2------2---2--2---2--2-----|
A|2------2---2--2---2--2---2-|2------2---2--2---2--2-----|
E|-------------------------0-|0------0---0--0---0--0-----|
   Hold      me                Love      me           ain't


  D                        E                           G
e|2----- 2----- 2---2- 2---0-|0----- 0---0- 0----- 0---3-|
B|3------3------3---3--3---0-|0------0---0--0------0---3-|
G|2------2------2---2--2---1-|1------1---1--1------1---0-|
D|0------0------0---0--0---2-|2------2---2--2------2---0-|
A|-------------------------2-|2------2---2--2------2---2-|
E|-------------------------0-|0------0---0--0------0---3-|
         got    nothing but   love,     babe,
e|------ 2----- ----2- ----0-|------ 0----- ----0- ------|
B|-------3----------3------0-|-------3----------3--------|
G|-------2----------2------1-|-------1----------1--------|
D|---------------------------|---------------------------|
A|---------------------------|---------------------------|
E|---------------------------|---------------------------|


  Coda
                              D
e|3----- 3----- 3----- 3-----|2----- 2---2- 2---2- 2---2-|
B|3------3------3------3-----|3------3---3--3---3--3---3-|
G|0------0------0------0-----|2------2---2--2---2--2---2-|
D|0------0------0------0-----|0------0---0--0---0--0---0-|
A|2------2------2------2-----|---------------------------|
E|3------3------3------3-----|---------------------------|
         eight   days     a   week
e|------ 3----- ----3- ----2-|------ 2----- ----2- ----2-|
B|-------3----------3------3-|-------3----------3------3-|
G|-------4----------4------2-|-------2----------2------2-|
D|---------------------------|---------------------------|
A|---------------------------|---------------------------|
E|---------------------------|---------------------------|


  G                           D                        G
e|3----- 3----- 3---3- 3-----|2----- 2----- 2---2- 2---3-|
B|3------3------3---3--3-----|3------3------3---3--3---3-|
G|0------0------0---0--0-----|2------2------2---2--2---0-|
D|0------0------0---0--0-----|0------0------0---0--0---0-|
A|2------2------2---2--2-----|-------------------------2-|
E|3------3------3---3--3-----|-------------------------3-|
         eight  days       a  week
e|------ 3----- ----3- ----3-|------ 2----- ----2- ----2-|
B|-------3----------3------3-|-------3----------3------3-|
G|-------4----------4------4-|-------2----------2------2-|
D|---------------------------|---------------------------|
A|---------------------------|---------------------------|
E|---------------------------|---------------------------|



                              D
e|3----- 3----- 3----- 3-----|2----- 2---2- 2---2- 2-----|
B|3------3------3------3-----|3------3---3--3---3--3-----|
G|0------0------0------0-----|2------2---2--2---2--2-----|
D|0------0------0------0-----|0------0---0--0---0--0-----|
A|2------2------2------2-----|---------------------------|
E|3------3------3------3-----|---------------------------|
         eight  days       a  week
e|------ 3----- ----3- ------|------ 2----- ----2- ------|
B|-------3----------3--------|-------3----------3--------|
G|-------4----------4--------|-------2----------2--------|
D|---------------------------|---------------------------|
A|---------------------------|---------------------------|
E|---------------------------|---------------------------|


  Outro

  D                           E
e|5----- ----5- 5H7--- 5-----|7----- ----7- 7H9--- 7-----|
B|7----------7--7------7-----|9----------9--9------9-----|
G|7----------7--7------7-----|9----------9--9------9-----|
D|0----------0--0------0-----|0----------0--0------0-----|
A|---------------------------|---------------------------|
E|---------------------------|---------------------------|
 
e|0----- ----0- 0----- 0-----|0----- ----0- 0----- 0-----|
B|3----------3--3------3-----|0----------0--0------0-----|
G|2----------2--2------2-----|1----------1--1------1-----|
D|0----------0--0------0-----|0----------0--0------0-----|
A|---------------------------|---------------------------|
E|---------------------------|---------------------------|


  G                           D(.
e|10---- ----10 10H12- 10----|5----- ------ ------ ------|
B|12---------12-12-----12----|7--------------------------|
G|12---------12-12-----12----|7--------------------------|
D|-0----------0--0------0----|0--------------------------|
A|---------------------------|---------------------------|
E|---------------------------|---------------------------|
                              Dsus2
e|0----- ----0- 0----- 0-----|0----- ------ ------ ------|
B|3----------3--3------3-----|3--------------------------|
G|0----------0--0------0-----|2--------------------------|
D|0----------0--0------0-----|0--------------------------|
A|---------------------------|---------------------------|
E|---------------------------|---------------------------|
 




        B  Bend
        R  Release
        /  slide up
          slide down
        H  hammer-on
        P  pull-off
        ~  vibrato
        +  harmonic
        x  Mute note
        . - play note like a dot in standard notation
        ^ - ties two notes together
        (. Pause



  


Ook op Beatles for Sale:

ChordsNotes On
No Reply No Reply
I'm a Loser I'm a Loser
Baby's in Black Baby's in Black
Rock & Roll Music Rock & Roll Music
I'll Follow the Sun I'll Follow the Sun
Mr. Moonlight Mr. Moonlight
Kansas City-Hey-Hey-Hey-Hey! [Medley] Kansas City-Hey-Hey-Hey-Hey! [Medley]
Eight Days a Week Eight Days a Week
Words of Love Words of Love
Honey Don't Honey Don't
Every Little Thing Every Little Thing
I Don't Want to Spoil the Party I Don't Want to Spoil the Party
What You're Doing What You're Doing
Everybody's Trying to Be My Baby Everybody's Trying to Be My Baby

Ook op Anthology 1:

ChordsNotes On
Free As A Bird Free As A Bird
Speeches_ant_1 We Were Four Guys ... That's All (john Lennon Speaking To Jann Wenner) 
That'll Be The Day 
In Spite Of All The Danger 
Sometimes I'd Borrow ... Those Still Exist 
Hallelujah, I Love Her So 
You'll Be Mine 
Cayenne 
First Of All ... It Didn't Do A Thing Here 
My Bonnie 
Ain't She Sweet 
Cry For A Shadow 
Brian Was A Beautiful Guy ... He Presented Us Well 
I Secured Them ... A Beatle Drink Even Then 
Searching 
Three Cool Cats 
Sheik Of Araby 
Like Dreamers Do 
Hello Little Girl 
Well, The Recording Test ... By My Artists 
Besame Mucho 
Love Me Do Love Me Do
How Do You Do It 
Please Please Me Please Please Me
One After 909 (Takes 3, 4, & 5)
One After 909 (Takes 4 & 5)
Lend Me Your Comb 
I'll Get You (Live at the London Palladium)
We Were Performers ... In Britain 
I Saw Her Standing There (Live in Stockholm)
From Me To You (Live in Stockholm)
Money (that's What I Want) (Live in Stockholm)
You've Really Got A Hold On Me (Live in Stockholm)
Roll Over Beethoven (Live in Stockholm)
She Loves You (Live at the Royal Variety Show)
Till There Was You (Live at the Royal Variety Show)
Twist And Shout (Live at the Royal Variety Show)
This Boy (Live on The Morecambe and Wise Show)
I Want To Hold Your Hand (Live on The Morecambe and Wise Show)
Boys, What I Was Thinking ... (morecambe & Wise Speaking To The Beatles) 
Moonlight Bay (Live on The Morecambe and Wise Show)
Can't Buy Me Love (Takes 1 & 2)
All My Loving Live on The Ed Sullivan Show)
You Can't Do That (Take 6)
And I Love Her (Take 2)
A Hard Day's Night (Take 1)
I Wanna Be Your Man I Wanna Be Your Man
Long Tall Sally Long Tall Sally
Boys Boys
Shout ! 
I'll Be Back (Take 2)
I'll Be Back (Take 3)
You Know What To Do 
No Reply No Reply
Mr. Moonlight (Takes 1 & 4)
Leave My Kitten Alone (Take 5)
No Reply (Take 2)
Eight Days A Week (Takes 1, 2 & 4)
Eight Days A Week (Take 5)
Kansas City-Hey-Hey-Hey-Hey! [medley] (Take 1)

Ook op Anthology 1:

ChordsNotes On
Free As A Bird Free As A Bird
Speeches_ant_1 We Were Four Guys ... That's All (john Lennon Speaking To Jann Wenner) 
That'll Be The Day 
In Spite Of All The Danger 
Sometimes I'd Borrow ... Those Still Exist 
Hallelujah, I Love Her So 
You'll Be Mine 
Cayenne 
First Of All ... It Didn't Do A Thing Here 
My Bonnie 
Ain't She Sweet 
Cry For A Shadow 
Brian Was A Beautiful Guy ... He Presented Us Well 
I Secured Them ... A Beatle Drink Even Then 
Searching 
Three Cool Cats 
Sheik Of Araby 
Like Dreamers Do 
Hello Little Girl 
Well, The Recording Test ... By My Artists 
Besame Mucho 
Love Me Do Love Me Do
How Do You Do It 
Please Please Me Please Please Me
One After 909 (Takes 3, 4, & 5)
One After 909 (Takes 4 & 5)
Lend Me Your Comb 
I'll Get You (Live at the London Palladium)
We Were Performers ... In Britain 
I Saw Her Standing There (Live in Stockholm)
From Me To You (Live in Stockholm)
Money (that's What I Want) (Live in Stockholm)
You've Really Got A Hold On Me (Live in Stockholm)
Roll Over Beethoven (Live in Stockholm)
She Loves You (Live at the Royal Variety Show)
Till There Was You (Live at the Royal Variety Show)
Twist And Shout (Live at the Royal Variety Show)
This Boy (Live on The Morecambe and Wise Show)
I Want To Hold Your Hand (Live on The Morecambe and Wise Show)
Boys, What I Was Thinking ... (morecambe & Wise Speaking To The Beatles) 
Moonlight Bay (Live on The Morecambe and Wise Show)
Can't Buy Me Love (Takes 1 & 2)
All My Loving Live on The Ed Sullivan Show)
You Can't Do That (Take 6)
And I Love Her (Take 2)
A Hard Day's Night (Take 1)
I Wanna Be Your Man I Wanna Be Your Man
Long Tall Sally Long Tall Sally
Boys Boys
Shout ! 
I'll Be Back (Take 2)
I'll Be Back (Take 3)
You Know What To Do 
No Reply No Reply
Mr. Moonlight (Takes 1 & 4)
Leave My Kitten Alone (Take 5)
No Reply (Take 2)
Eight Days A Week (Takes 1, 2 & 4)
Eight Days A Week (Take 5)
Kansas City-Hey-Hey-Hey-Hey! [medley] (Take 1)

Ook op 1962-1966:

ChordsNotes On
Love Me Do Love Me Do
Please Please Me Please Please Me
From Me to You From Me to You
She Loves You She Loves You
I Want to Hold Your Hand I Want to Hold Your Hand
All My Loving All My Loving
Can't Buy Me Love Can't Buy Me Love
A Hard Day's Night A Hard Day's Night
And I Love Her And I Love Her
Eight Days a Week Eight Days a Week
I Feel Fine I Feel Fine
Ticket to Ride Ticket to Ride
Yesterday Yesterday
Help! Help!
You've Got to Hide Your Love Away You've Got to Hide Your Love Away
We Can Work It Out We Can Work It Out
Day Tripper Day Tripper
Drive My Car Drive My Car
Norwegian Wood (This Bird Has Flown) Norwegian Wood (This Bird Has Flown)
Nowhere Man Nowhere Man
Michelle Michelle
In My Life In My Life
Girl Girl
Paperback Writer Paperback Writer
Eleanor Rigby Eleanor Rigby
Yellow Submarine Yellow Submarine

Ook op 1:

ChordsNotes On
Love Me Do Love Me Do
From Me to You From Me to You
She Loves You She Loves You
I Want to Hold Your Hand I Want to Hold Your Hand
Can't Buy Me Love Can't Buy Me Love
A Hard Day's Night A Hard Day's Night
I Feel Fine I Feel Fine
Eight Days a Week Eight Days a Week
Ticket to Ride Ticket to Ride
Help! Help!
Yesterday Yesterday
Day Tripper Day Tripper
We Can Work It Out We Can Work It Out
Paperback Writer Paperback Writer
Yellow Submarine Yellow Submarine
Eleanor Rigby Eleanor Rigby
Penny Lane Penny Lane
All You Need Is Love All You Need Is Love
Hello Goodbye Hello Goodbye
Lady Madonna Lady Madonna
Hey Jude Hey Jude
Get Back Get Back
The Ballad of John and Yoko The Ballad of John and Yoko
Something Something
Come Together Come Together
Let It Be Let It Be
The Long and Winding Road The Long and Winding Road

(c) 2019 Serge Girard